  0
SECTION
  2
HEADER
  9
$ACADVER
  1
AC1018
  9
$HANDSEED
  5
FFFFFF
  9
$EXTMAX
 10
7548642.20100000035
 20
5745582.17100000009
 30
1000000.00
  9
$EXTMIN
 10
7548614.14599999972
 20
5745551.55399999954
 30
0.00
  9
$LIMMIN
 10
7548614.14599999972
 20
5745551.55399999954
  9
$LIMMAX
 10
7548642.20100000035
 20
5745582.17100000009
  9
$DIMASZ
 40
2.5
  9
$DIMGAP
 40
0.625
  9
$INSUNITS
 70
6
  9
$MEASUREMENT
 70
1
  9
$DIMEXO
 40
0.625
  9
$DIMTXT
 40
2.5
  9
$DIMSTYLE
  2
Standard
  9
$PLIMMIN
 10
0.0
 20
0.0
  9
$PLIMMAX
 10
210.0
 20
297.0
  9
$DIMEXE
 40
1.25
  9
$TEXTSIZE
 40
2.5
  9
$TEXTSTYLE
  7
Standard
  9
$LWDISPLAY
290
1
  9
$TDCREATE
 40
45639.957329039
  9
$TDUCREATE
 40
45639.915662373
  9
$TDUPDATE
 40
45639.957329039
  9
$TDUUPDATE
 40
45639.915662373
  9
$TDINDWG
 40
0.0
  9
$TDUSRTIMER
 40
0.0
  9
$USRTIMER
 70
1
  0
ENDSEC
  0
SECTION
  2
TABLES
  0
TABLE
  2
VPORT
  5
1
100
AcDbSymbolTable
 70
1
  0
VPORT
  5
2
100
AcDbSymbolTableRecord
100
AcDbViewportTableRecord
  2
*ACTIVE
 70
0
 10
0.0
 20
0.0
 11
1.0
 21
1.0
 12
7548628.173
 22
5745566.862
 13
0.0
 23
0.0
 14
1.0
 24
1.0
 15
0.0
 25
0.0
 16
0.0
 26
0.0
 36
1.0
 17
0.0
 27
0.0
 37
0.0
 40
30.617
 41
0.916
 42
50.0
 43
0.0
 44
0.0
 50
0.0
 51
0.0
 71
0
 72
100
 73
1
 74
1
 75
0
 76
0
 77
0
 78
0
  0
ENDTAB
  0
TABLE
  2
LTYPE
  5
3
100
AcDbSymbolTable
 70
3
  0
LTYPE
  5
4
100
AcDbSymbolTableRecord
100
AcDbLinetypeTableRecord
  2
ByBlock
 70
0
  3

 72
65
 73
0
 40
0.0
  0
LTYPE
  5
5
100
AcDbSymbolTableRecord
100
AcDbLinetypeTableRecord
  2
ByLayer
 70
0
  3

 72
65
 73
0
 40
0.0
  0
LTYPE
  5
6
100
AcDbSymbolTableRecord
100
AcDbLinetypeTableRecord
  2
CONTINUOUS
 70
0
  3
Solid line
 72
65
 73
0
 40
0.0
  0
LTYPE
  5
7
100
AcDbSymbolTableRecord
100
AcDbLinetypeTableRecord
  2
L_0_03
 70
0
  3
Uzytek_gruntowy
 72
65
 73
2
 40
0.4
 49
0.2
 74
0
 49
-0.2
 74
0
  0
ENDTAB
  0
TABLE
  2
LAYER
  5
8
100
AcDbSymbolTable
 70
3
  0
LAYER
  5
9
100
AcDbSymbolTableRecord
100
AcDbLayerTableRecord
  2
0
 70
0
420
0
  6
CONTINUOUS
370
18
390
A
  0
LAYER
  5
B
100
AcDbSymbolTableRecord
100
AcDbLayerTableRecord
  2
Obrys_Budynek
 70
0
420
11674146
  6
CONTINUOUS
370
25
390
A
  0
LAYER
  5
C
100
AcDbSymbolTableRecord
100
AcDbLayerTableRecord
  2
Osie
 70
0
420
16711680
  6
CONTINUOUS
370
18
390
A
  0
ENDTAB
  0
TABLE
  2
STYLE
  5
D
100
AcDbSymbolTable
 70
2
  0
STYLE
  5
E
100
AcDbSymbolTableRecord
100
AcDbTextStyleTableRecord
  2
STANDARD
 70
0
 40
0.0
 41
1.0
 50
0.0
 71
0
  3
simplex.shx
  4

  0
STYLE
  5
F
100
AcDbSymbolTableRecord
100
AcDbTextStyleTableRecord
  2
STANDARD_ITALIC
 70
0
 40
0.0
 41
1.0
 50
15.0
 71
0
  3
simplex.shx
  4

  0
ENDTAB
  0
TABLE
  2
VIEW
  5
10
100
AcDbSymbolTable
 70
0
  0
ENDTAB
  0
TABLE
  2
UCS
  5
11
100
AcDbSymbolTable
 70
0
  0
ENDTAB
  0
TABLE
  2
APPID
  5
12
100
AcDbSymbolTable
 70
1
  0
APPID
  5
13
100
AcDbSymbolTableRecord
100
AcDbRegAppTableRecord
  2
ACAD
 70
0
  0
ENDTAB
  0
TABLE
  2
DIMSTYLE
  5
14
100
AcDbSymbolTable
 70
1
100
AcDbDimStyleTable
  0
DIMSTYLE
105
15
100
AcDbSymbolTableRecord
100
AcDbDimStyleTableRecord
  2
Standard
 70
0
340
E
  0
ENDTAB
  0
TABLE
  2
BLOCK_RECORD
  5
16
100
AcDbSymbolTable
 70
2
  0
BLOCK_RECORD
  5
17
100
AcDbSymbolTableRecord
100
AcDbBlockTableRecord
  2
*Model_Space
340
18
  0
BLOCK_RECORD
  5
19
100
AcDbSymbolTableRecord
100
AcDbBlockTableRecord
  2
*Paper_Space
340
1A
  0
ENDTAB
  0
ENDSEC
  0
SECTION
  2
BLOCKS
  0
BLOCK
  5
1B
100
AcDbEntity
  8
0
100
AcDbBlockBegin
  2
*Model_Space
 70
0
 10
0.0
 20
0.0
 30
0.0
  3
*Model_Space
  1

  0
ENDBLK
  5
1C
100
AcDbEntity
  8
0
100
AcDbBlockEnd
  0
BLOCK
  5
1D
100
AcDbEntity
 67
1
  8
0
100
AcDbBlockBegin
  2
*Paper_Space
 70
0
 10
0.0
 20
0.0
 30
0.0
  3
*Paper_Space
  1

  0
ENDBLK
  5
1E
100
AcDbEntity
 67
1
  8
0
100
AcDbBlockEnd
  0
ENDSEC
  0
SECTION
  2
ENTITIES
  0
POLYLINE
  5
1F
100
AcDbEntity
  8
Obrys_Budynek
  6
CONTINUOUS
370
25
100
AcDb2dPolyline
 66
1
 70
129
  0
VERTEX
  5
20
100
AcDbEntity
  8
Obrys_Budynek
100
AcDbVertex
100
AcDb2dVertex
 10
7548620.67636330053
 20
5745575.56421430409
  0
VERTEX
  5
21
100
AcDbEntity
  8
Obrys_Budynek
100
AcDbVertex
100
AcDb2dVertex
 10
7548629.94421397056
 20
5745571.30363840237
  0
VERTEX
  5
22
100
AcDbEntity
  8
Obrys_Budynek
100
AcDbVertex
100
AcDb2dVertex
 10
7548628.16922957078
 20
5745567.44267233647
  0
VERTEX
  5
23
100
AcDbEntity
  8
Obrys_Budynek
100
AcDbVertex
100
AcDb2dVertex
 10
7548630.486221998
 20
5745566.37667582184
  0
VERTEX
  5
24
100
AcDbEntity
  8
Obrys_Budynek
100
AcDbVertex
100
AcDb2dVertex
 10
7548626.93564223871
 20
5745558.65477198828
  0
VERTEX
  5
25
100
AcDbEntity
  8
Obrys_Budynek
100
AcDbVertex
100
AcDb2dVertex
 10
7548615.3507880671
 20
5745563.97937182523
  0
SEQEND
  5
26
100
AcDbEntity
  8
Obrys_Budynek
  0
POLYLINE
  5
27
100
AcDbEntity
  8
Obrys_Budynek
  6
CONTINUOUS
370
25
100
AcDb2dPolyline
 66
1
 70
129
  0
VERTEX
  5
28
100
AcDbEntity
  8
Obrys_Budynek
100
AcDbVertex
100
AcDb2dVertex
 10
7548620.45506245922
 20
5745576.16081370972
  0
VERTEX
  5
29
100
AcDbEntity
  8
Obrys_Budynek
100
AcDbVertex
100
AcDb2dVertex
 10
7548630.5408404991
 20
5745571.52492522635
  0
VERTEX
  5
2A
100
AcDbEntity
  8
Obrys_Budynek
100
AcDbVertex
100
AcDb2dVertex
 10
7548628.76577354316
 20
5745567.66377958283
  0
VERTEX
  5
2B
100
AcDbEntity
  8
Obrys_Budynek
100
AcDbVertex
100
AcDb2dVertex
 10
7548631.08277354296
 20
5745566.59777958412
  0
VERTEX
  5
2C
100
AcDbEntity
  8
Obrys_Budynek
100
AcDbVertex
100
AcDb2dVertex
 10
7548627.15692414623
 20
5745558.05822774023
  0
VERTEX
  5
2D
100
AcDbEntity
  8
Obrys_Budynek
100
AcDbVertex
100
AcDb2dVertex
 10
7548614.75417289697
 20
5745563.75803332031
  0
SEQEND
  5
2E
100
AcDbEntity
  8
Obrys_Budynek
  0
POLYLINE
  5
2F
100
AcDbEntity
  8
Osie
  6
CONTINUOUS
370
18
100
AcDb2dPolyline
 66
1
 70
128
  0
VERTEX
  5
30
100
AcDbEntity
  8
Osie
100
AcDbVertex
100
AcDb2dVertex
 10
7548620.61456572916
 20
5745575.72996777575
  0
VERTEX
  5
31
100
AcDbEntity
  8
Osie
100
AcDbVertex
100
AcDb2dVertex
 10
7548632.42695874069
 20
5745570.30043842364
  0
SEQEND
  5
32
100
AcDbEntity
  8
Osie
  0
POLYLINE
  5
33
100
AcDbEntity
  8
Osie
  6
CONTINUOUS
370
18
100
AcDb2dPolyline
 66
1
 70
128
  0
VERTEX
  5
34
100
AcDbEntity
  8
Osie
100
AcDbVertex
100
AcDb2dVertex
 10
7548632.42695874069
 20
5745570.30043842364
  0
VERTEX
  5
35
100
AcDbEntity
  8
Osie
100
AcDbVertex
100
AcDb2dVertex
 10
7548626.99743427057
 20
5745558.48900841642
  0
SEQEND
  5
36
100
AcDbEntity
  8
Osie
  0
POLYLINE
  5
37
100
AcDbEntity
  8
Osie
  6
CONTINUOUS
370
18
100
AcDb2dPolyline
 66
1
 70
128
  0
VERTEX
  5
38
100
AcDbEntity
  8
Osie
100
AcDbVertex
100
AcDb2dVertex
 10
7548626.99743427057
 20
5745558.48900841642
  0
VERTEX
  5
39
100
AcDbEntity
  8
Osie
100
AcDbVertex
100
AcDb2dVertex
 10
7548615.18504125904
 20
5745563.91758538689
  0
SEQEND
  5
3A
100
AcDbEntity
  8
Osie
  0
POLYLINE
  5
3B
100
AcDbEntity
  8
Osie
  6
CONTINUOUS
370
18
100
AcDb2dPolyline
 66
1
 70
128
  0
VERTEX
  5
3C
100
AcDbEntity
  8
Osie
100
AcDbVertex
100
AcDb2dVertex
 10
7548615.18504125904
 20
5745563.91758538689
  0
VERTEX
  5
3D
100
AcDbEntity
  8
Osie
100
AcDbVertex
100
AcDb2dVertex
 10
7548620.61456572916
 20
5745575.72996777575
  0
SEQEND
  5
3E
100
AcDbEntity
  8
Osie
  0
POLYLINE
  5
3F
100
AcDbEntity
  8
Osie
  6
CONTINUOUS
370
18
100
AcDb2dPolyline
 66
1
 70
128
  0
VERTEX
  5
40
100
AcDbEntity
  8
Osie
100
AcDbVertex
100
AcDb2dVertex
 10
7548618.83985098824
 20
5745571.86847879924
  0
VERTEX
  5
41
100
AcDbEntity
  8
Osie
100
AcDbVertex
100
AcDb2dVertex
 10
7548630.65185098816
 20
5745566.43847879861
  0
SEQEND
  5
42
100
AcDbEntity
  8
Osie
  0
POLYLINE
  5
43
100
AcDbEntity
  8
Osie
  6
CONTINUOUS
370
18
100
AcDb2dPolyline
 66
1
 70
128
  0
VERTEX
  5
44
100
AcDbEntity
  8
Osie
100
AcDbVertex
100
AcDb2dVertex
 10
7548616.96043045819
 20
5745567.77933049295
  0
VERTEX
  5
45
100
AcDbEntity
  8
Osie
100
AcDbVertex
100
AcDb2dVertex
 10
7548628.77243045811
 20
5745562.34933049325
  0
SEQEND
  5
46
100
AcDbEntity
  8
Osie
  0
POLYLINE
  5
47
100
AcDbEntity
  8
Osie
  6
CONTINUOUS
370
18
100
AcDb2dPolyline
 66
1
 70
128
  0
VERTEX
  5
48
100
AcDbEntity
  8
Osie
100
AcDbVertex
100
AcDb2dVertex
 10
7548616.32074152958
 20
5745563.39589734934
  0
VERTEX
  5
49
100
AcDbEntity
  8
Osie
100
AcDbVertex
100
AcDb2dVertex
 10
7548621.75074153021
 20
5745575.20789735019
  0
SEQEND
  5
4A
100
AcDbEntity
  8
Osie
  0
POLYLINE
  5
4B
100
AcDbEntity
  8
Osie
  6
CONTINUOUS
370
18
100
AcDb2dPolyline
 66
1
 70
128
  0
VERTEX
  5
4C
100
AcDbEntity
  8
Osie
100
AcDbVertex
100
AcDb2dVertex
 10
7548630.11012150254
 20
5745571.3651638506
  0
VERTEX
  5
4D
100
AcDbEntity
  8
Osie
100
AcDbVertex
100
AcDb2dVertex
 10
7548624.68012150284
 20
5745559.55416385084
  0
SEQEND
  5
4E
100
AcDbEntity
  8
Osie
  0
POLYLINE
  5
4F
100
AcDbEntity
  8
Osie
  6
L_0_03
370
13
100
AcDb2dPolyline
 66
1
 70
128
  0
VERTEX
  5
50
100
AcDbEntity
  8
Osie
100
AcDbVertex
100
AcDb2dVertex
 10
7548620.45515941083
 20
5745576.16060718242
  0
VERTEX
  5
51
100
AcDbEntity
  8
Osie
100
AcDbVertex
100
AcDb2dVertex
 10
7548622.12532633543
 20
5745579.79499009717
  0
SEQEND
  5
52
100
AcDbEntity
  8
Osie
  0
POLYLINE
  5
53
100
AcDbEntity
  8
Osie
  6
L_0_03
370
13
100
AcDb2dPolyline
 66
1
 70
128
  0
VERTEX
  5
54
100
AcDbEntity
  8
Osie
100
AcDbVertex
100
AcDb2dVertex
 10
7548632.85755135212
 20
5745570.45997472852
  0
VERTEX
  5
55
100
AcDbEntity
  8
Osie
100
AcDbVertex
100
AcDb2dVertex
 10
7548634.52835975122
 20
5745574.09406279586
  0
SEQEND
  5
56
100
AcDbEntity
  8
Osie
  0
POLYLINE
  5
57
100
AcDbEntity
  8
Osie
  6
L_0_03
370
13
100
AcDb2dPolyline
 66
1
 70
128
  0
VERTEX
  5
58
100
AcDbEntity
  8
Osie
100
AcDbVertex
100
AcDb2dVertex
 10
7548632.85755135212
 20
5745570.45997472852
  0
VERTEX
  5
59
100
AcDbEntity
  8
Osie
100
AcDbVertex
100
AcDb2dVertex
 10
7548634.52835975122
 20
5745574.09406279586
  0
SEQEND
  5
5A
100
AcDbEntity
  8
Osie
  0
POLYLINE
  5
5B
100
AcDbEntity
  8
Osie
  6
L_0_03
370
13
100
AcDb2dPolyline
 66
1
 70
128
  0
VERTEX
  5
5C
100
AcDbEntity
  8
Osie
100
AcDbVertex
100
AcDb2dVertex
 10
7548620.45515941083
 20
5745576.16060718242
  0
VERTEX
  5
5D
100
AcDbEntity
  8
Osie
100
AcDbVertex
100
AcDb2dVertex
 10
7548622.12532633543
 20
5745579.79499009717
  0
SEQEND
  5
5E
100
AcDbEntity
  8
Osie
  0
POLYLINE
  5
5F
100
AcDbEntity
  8
Osie
  6
L_0_03
370
13
100
AcDb2dPolyline
 66
1
 70
128
  0
VERTEX
  5
60
100
AcDbEntity
  8
Osie
100
AcDbVertex
100
AcDb2dVertex
 10
7548632.85755135212
 20
5745570.45997472852
  0
VERTEX
  5
61
100
AcDbEntity
  8
Osie
100
AcDbVertex
100
AcDb2dVertex
 10
7548639.21557972114
 20
5745567.53303634934
  0
SEQEND
  5
62
100
AcDbEntity
  8
Osie
  0
POLYLINE
  5
63
100
AcDbEntity
  8
Osie
  6
L_0_03
370
13
100
AcDb2dPolyline
 66
1
 70
128
  0
VERTEX
  5
64
100
AcDbEntity
  8
Osie
100
AcDbVertex
100
AcDb2dVertex
 10
7548627.15676063299
 20
5745558.05764659774
  0
VERTEX
  5
65
100
AcDbEntity
  8
Osie
100
AcDbVertex
100
AcDb2dVertex
 10
7548633.50735839549
 20
5745555.13436097279
  0
SEQEND
  5
66
100
AcDbEntity
  8
Osie
  0
TEXT
  5
67
100
AcDbEntity
  8
Obrys_Budynek
370
18
100
AcDbText
 10
7548626.57888657786
 20
5745573.3503688192
 40
0.36
  1
-13.650-
 50
-25.00
 41
0.66
  7
STANDARD
 72
1
 11
7548627.1807139935
 21
5745572.93732673675
100
AcDbText
 73
1
  0
TEXT
  5
68
100
AcDbEntity
  8
Obrys_Budynek
370
18
100
AcDbText
 10
7548629.63761668373
 20
5745563.63669757172
 40
0.36
  1
-13.650-
 50
-295.00
 41
0.66
  7
STANDARD
 72
1
 11
7548630.05065876618
 21
5745564.23852498736
100
AcDbText
 73
1
  0
TEXT
  5
69
100
AcDbEntity
  8
Obrys_Budynek
370
18
100
AcDbText
 10
7548620.33336903155
 20
5745561.27758409921
 40
0.36
  1
-13.650-
 50
-25.00
 41
0.66
  7
STANDARD
 72
1
 11
7548620.93519644719
 21
5745560.86454201676
100
AcDbText
 73
1
  0
TEXT
  5
6A
100
AcDbEntity
  8
Obrys_Budynek
370
18
100
AcDbText
 10
7548617.23514220398
 20
5745569.33741199039
 40
0.36
  1
-13.650-
 50
-295.00
 41
0.66
  7
STANDARD
 72
1
 11
7548617.64818428643
 21
5745569.93923940603
100
AcDbText
 73
1
  0
TEXT
  5
6B
100
AcDbEntity
  8
Osie
370
18
100
AcDbText
 10
7548626.15745838918
 20
5745572.58428514563
 40
0.36
  1
-13.000-
 50
-25.00
 41
0.66
  7
STANDARD
 72
1
 11
7548626.75928580482
 21
5745572.17124306317
100
AcDbText
 73
1
  0
TEXT
  5
6C
100
AcDbEntity
  8
Osie
370
18
100
AcDbText
 10
7548619.39883115515
 20
5745573.25722627714
 40
0.36
  1
-4.249-
 50
-294.70
 41
0.66
  7
STANDARD
 72
1
 11
7548619.77110839263
 21
5745573.77944238018
100
AcDbText
 73
1
  0
TEXT
  5
6D
100
AcDbEntity
  8
Osie
370
18
100
AcDbText
 10
7548631.21083115507
 20
5745567.82722627744
 40
0.36
  1
-4.249-
 50
-294.70
 41
0.66
  7
STANDARD
 72
1
 11
7548631.58310839254
 21
5745568.34944238048
100
AcDbText
 73
1
  0
TEXT
  5
6E
100
AcDbEntity
  8
Osie
370
18
100
AcDbText
 10
7548629.38333115447
 20
5745563.85222627781
 40
0.36
  1
-4.500-
 50
-294.70
 41
0.66
  7
STANDARD
 72
1
 11
7548629.75560839195
 21
5745564.37444238085
100
AcDbText
 73
1
  0
TEXT
  5
6F
100
AcDbEntity
  8
Osie
370
18
100
AcDbText
 10
7548627.55583115574
 20
5745559.87722627725
 40
0.36
  1
-4.249-
 50
-294.70
 41
0.66
  7
STANDARD
 72
1
 11
7548627.92810839321
 21
5745560.39944238029
100
AcDbText
 73
1
  0
TEXT
  5
70
100
AcDbEntity
  8
Osie
370
18
100
AcDbText
 10
7548617.57133115549
 20
5745569.28172627743
 40
0.36
  1
-4.501-
 50
-294.70
 41
0.66
  7
STANDARD
 72
1
 11
7548617.94360839296
 21
5745569.80394238047
100
AcDbText
 73
1
  0
TEXT
  5
71
100
AcDbEntity
  8
Osie
370
18
100
AcDbText
 10
7548615.74383115489
 20
5745565.30622627772
 40
0.36
  1
-4.249-
 50
-294.70
 41
0.66
  7
STANDARD
 72
1
 11
7548616.11610839237
 21
5745565.82844238076
100
AcDbText
 73
1
  0
TEXT
  5
72
100
AcDbEntity
  8
Osie
370
18
100
AcDbText
 10
7548615.2107262779
 20
5745563.98566884454
 40
0.36
  1
-1.250-
 50
-24.70
 41
0.66
  7
STANDARD
 72
1
 11
7548615.73294238094
 21
5745563.61339160707
100
AcDbText
 73
1
  0
TEXT
  5
73
100
AcDbEntity
  8
Osie
370
18
100
AcDbText
 10
7548619.95822627749
 20
5745561.80366884451
 40
0.36
  1
-9.200-
 50
-24.70
 41
0.66
  7
STANDARD
 72
1
 11
7548620.48044238053
 21
5745561.43139160704
100
AcDbText
 73
1
  0
TEXT
  5
74
100
AcDbEntity
  8
Osie
370
18
100
AcDbText
 10
7548625.29622627795
 20
5745559.35016884468
 40
0.36
  1
-2.550-
 50
-24.70
 41
0.66
  7
STANDARD
 72
1
 11
7548625.81844238099
 21
5745558.97789160721
100
AcDbText
 73
1
  0
TEXT
  5
75
100
AcDbEntity
  8
Osie
370
18
100
AcDbText
 10
7548630.72622627765
 20
5745571.16116884444
 40
0.36
  1
-2.550-
 50
-24.70
 41
0.66
  7
STANDARD
 72
1
 11
7548631.24844238069
 21
5745570.78889160696
100
AcDbText
 73
1
  0
TEXT
  5
76
100
AcDbEntity
  8
Osie
370
18
100
AcDbText
 10
7548620.6407262776
 20
5745575.79766884539
 40
0.36
  1
-1.250-
 50
-24.70
 41
0.66
  7
STANDARD
 72
1
 11
7548621.16294238064
 21
5745575.42539160792
100
AcDbText
 73
1
  0
TEXT
  5
77
100
AcDbEntity
  8
Osie
370
18
100
AcDbText
 10
7548625.19528721273
 20
5745573.62462624162
 40
0.36
  1
-9.200-
 50
-24.70
 41
0.66
  7
STANDARD
 72
1
 11
7548625.71750331577
 21
5745573.25234900415
100
AcDbText
 73
1
  0
TEXT
  5
78
100
AcDbEntity
  8
Osie
370
18
100
AcDbText
 10
7548623.62373433355
 20
5745567.80975939985
 40
0.36
  1
-18.384-
 50
-69.70
 41
0.66
  7
STANDARD
 72
1
 11
7548623.76098133065
 21
5745567.09284708928
100
AcDbText
 73
1
  0
TEXT
  5
79
100
AcDbEntity
  8
Osie
370
18
100
AcDbText
 10
7548622.19471996371
 20
5745566.61020632833
 40
0.36
  1
-18.385-
 50
-339.70
 41
0.66
  7
STANDARD
 72
1
 11
7548622.91163227428
 21
5745566.74745332543
100
AcDbText
 73
1
  0
MTEXT
  5
7A
100
AcDbEntity
  8
Osie
370
30
100
AcDbMText
 10
7548622.26999999583
 20
5745580.01999999676
 40
0.6000
 41
0.0
 71
6
 72
1
  1
\W0.6563x;12.343
  7
STANDARD
 11
-0.41786707
 21
-0.90850818
 44
0.90
 90
3
 63
0
 45
1.0
  0
MTEXT
  5
7B
100
AcDbEntity
  8
Osie
370
30
100
AcDbMText
 10
7548633.87488151155
 20
5745572.1934579825
 40
0.6000
 41
0.0
 71
8
 72
1
  1
\W0.6563x;4.000
  7
STANDARD
 11
-0.41786707
 21
-0.90850818
 44
0.90
 90
3
 63
0
 45
1.0
  0
MTEXT
  5
7C
100
AcDbEntity
  8
Osie
370
30
100
AcDbMText
 10
7548634.54999999609
 20
5745574.3199999975
 40
0.6000
 41
0.0
 71
4
 72
1
  1
\W0.6563x;7.001
  7
STANDARD
 11
0.41786707
 21
0.90850818
 44
0.90
 90
3
 63
0
 45
1.0
  0
MTEXT
  5
7D
100
AcDbEntity
  8
Osie
370
30
100
AcDbMText
 10
7548621.10846153181
 20
5745578.06156846415
 40
0.6000
 41
0.0
 71
8
 72
1
  1
\W0.6563x;3.999
  7
STANDARD
 11
0.41786707
 21
0.90850818
 44
0.90
 90
3
 63
0
 45
1.0
  0
MTEXT
  5
7E
100
AcDbEntity
  8
Osie
370
30
100
AcDbMText
 10
7548639.21557972114
 20
5745567.53303634934
 40
0.6000
 41
0.0
 71
6
 72
1
  1
\W0.6563x;4.004
  7
STANDARD
 11
-0.90850818
 21
0.41786707
 44
0.90
 90
3
 63
0
 45
1.0
  0
MTEXT
  5
7F
100
AcDbEntity
  8
Osie
370
30
100
AcDbMText
 10
7548635.95321644563
 20
5745568.81481653824
 40
0.6000
 41
0.0
 71
8
 72
1
  1
\W0.6563x;6.999
  7
STANDARD
 11
-0.90850818
 21
0.41786707
 44
0.90
 90
3
 63
0
 45
1.0
  0
MTEXT
  5
80
100
AcDbEntity
  8
Osie
370
30
100
AcDbMText
 10
7548633.50735839549
 20
5745555.13436097279
 40
0.6000
 41
0.0
 71
6
 72
1
  1
\W0.6563x;17.653
  7
STANDARD
 11
-0.90850818
 21
0.41786707
 44
0.90
 90
3
 63
0
 45
1.0
  0
MTEXT
  5
81
100
AcDbEntity
  8
Osie
370
30
100
AcDbMText
 10
7548630.2486057831
 20
5745556.41447885055
 40
0.6000
 41
0.0
 71
8
 72
1
  1
\W0.6563x;6.991
  7
STANDARD
 11
-0.90850818
 21
0.41786707
 44
0.90
 90
3
 63
0
 45
1.0
  0
ENDSEC
  0
SECTION
  2
OBJECTS
  0
DICTIONARY
  5
82
330
0
100
AcDbDictionary
280
0
281
1
  3
ACAD_GROUP
350
83
  3
ACAD_LAYOUT
350
84
  3
ACAD_MLINESTYLE
350
85
  3
ACAD_PLOTSETTINGS
350
86
  3
ACAD_PLOTSTYLENAME
350
87
  0
DICTIONARY
  5
83
102
{ACAD_REACTORS
330
82
102
}
330
82
100
AcDbDictionary
280
0
281
1
  0
DICTIONARY
  5
84
102
{ACAD_REACTORS
330
82
102
}
330
82
100
AcDbDictionary
280
0
281
1
  3
Layout
350
1A
  3
Model
350
18
  0
DICTIONARY
  5
85
102
{ACAD_REACTORS
330
82
102
}
330
82
100
AcDbDictionary
280
0
281
1
  3
Standard
350
88
  0
DICTIONARY
  5
86
102
{ACAD_REACTORS
330
82
102
}
330
82
100
AcDbDictionary
280
0
281
1
  0
ACDBDICTIONARYWDFLT
  5
87
102
{ACAD_REACTORS
330
82
102
}
330
82
100
AcDbDictionary
281
1
  3
Normal
350
A
100
AcDbDictionaryWithDefault
340
A
  0
LAYOUT
  5
1A
100
AcDbPlotSettings
  1

  2

  4

  6

 40
0.0
 41
0.0
 42
0.0
 43
0.0
 44
0.0
 45
0.0
 46
0.0
 47
0.0
 48
0.0
 49
0.0
140
0.0
141
0.0
142
1.0
143
1.0
 70
688
 72
1
 73
0
 74
5
  7

 75
0
147
1.0
148
0.0
149
0.0
100
AcDbLayout
  1
Layout
 70
1
 71
1
 10
0.0
 20
0.0
 11
420.0
 21
297.0
 12
0.0
 22
0.0
 32
0.0
 14
100000000000000000000.0
 24
100000000000000000000.0
 34
100000000000000000000.0
 15
-100000000000000000000.0
 25
-100000000000000000000.0
 35
-100000000000000000000.0
146
0.0
 13
0.0
 23
0.0
 33
0.0
 16
1.0
 26
0.0
 36
0.0
 17
0.0
 27
1.0
 37
0.0
 76
0
330
19
  0
LAYOUT
  5
18
100
AcDbPlotSettings
  1

  2

  4

  6

 40
0.0
 41
0.0
 42
0.0
 43
0.0
 44
0.0
 45
0.0
 46
0.0
 47
0.0
 48
0.0
 49
0.0
140
0.0
141
0.0
142
1.0
143
1.0
 70
1712
 72
1
 73
0
 74
0
  7

 75
0
147
1.0
148
0.0
149
0.0
100
AcDbLayout
  1
Model
 70
1
 71
0
 10
0.0
 20
0.0
 11
12.0
 21
9.0
 12
0.0
 22
0.0
 32
0.0
 14
0.0
 24
0.0
 34
0.0
 15
0.0
 25
0.0
 35
0.0
146
0.0
 13
0.0
 23
0.0
 33
0.0
 16
1.0
 26
0.0
 36
0.0
 17
0.0
 27
1.0
 37
0.0
 76
0
330
17
  0
MLINESTYLE
  5
88
102
{ACAD_REACTORS
330
85
102
}
330
85
100
AcDbMlineStyle
  2
Standard
 70
0
  3

 62
256
 51
90.0
 52
90.0
  2
Standard
 71
2
 49
0.5
 62
256
  6
ByLayer
 49
-0.5
 62
256
  6
ByLayer
  0
ACDBPLACEHOLDER
  5
A
  0
ENDSEC
  0
EOF
